ISO-10303-21;
HEADER;
FILE_DESCRIPTION (( 'STEP AP203' ),
    '1' );
FILE_NAME ('QM-CAHWP-20-650-1100-M.STEP',
    '2021-01-05T02:35:43',
    ( '' ),
    ( '' ),
    'SwSTEP 2.0',
    'SolidWorks 2020',
    '' );
FILE_SCHEMA (( 'CONFIG_CONTROL_DESIGN' ));
ENDSEC;

DATA;
#1 = AXIS2_PLACEMENT_3D ( 'NONE', #274, #48, #124 ) ;
#2 = DIRECTION ( 'NONE',  ( 0.000000000000000000, 0.000000000000000000, -1.000000000000000000 ) ) ;
#3 = ADVANCED_FACE ( 'NONE', ( #276 ), #149, .F. ) ;
#4 = DIRECTION ( 'NONE',  ( -1.000000000000000000, -0.000000000000000000, -0.000000000000000000 ) ) ;
#5 = APPROVAL ( #327, 'UNSPECIFIED' ) ;
#6 = DATE_AND_TIME ( #176, #11 ) ;
#7 = FACE_OUTER_BOUND ( 'NONE', #252, .T. ) ;
#8 =( GEOMETRIC_REPRESENTATION_CONTEXT ( 3 ) GLOBAL_UNCERTAINTY_ASSIGNED_CONTEXT ( ( #64 ) ) GLOBAL_UNIT_ASSIGNED_CONTEXT ( ( #24, #333, #34 ) ) REPRESENTATION_CONTEXT ( 'NONE', 'WORKASPACE' ) );
#9 = LOCAL_TIME ( 10, 35, 43.00000000000000000, #58 ) ;
#10 = DIRECTION ( 'NONE',  ( 0.000000000000000000, 0.000000000000000000, 1.000000000000000000 ) ) ;
#11 = LOCAL_TIME ( 10, 35, 43.00000000000000000, #284 ) ;
#12 = CC_DESIGN_PERSON_AND_ORGANIZATION_ASSIGNMENT ( #103, #30, ( #20 ) ) ;
#13 = CLOSED_SHELL ( 'NONE', ( #63, #195, #112, #174, #206, #235, #269, #163, #26, #3 ) ) ;
#14 = LOCAL_TIME ( 10, 35, 43.00000000000000000, #241 ) ;
#15 = EDGE_LOOP ( 'NONE', ( #23, #142 ) ) ;
#16 = CARTESIAN_POINT ( 'NONE',  ( -3.000000000000000000, 1.555301434917138433E-15, -12.69999999999999929 ) ) ;
#17 = VERTEX_POINT ( 'NONE', #277 ) ;
#18 = CARTESIAN_POINT ( 'NONE',  ( -1.614212418857619014, 1.224646799147353256E-15, -10.00000000000000000 ) ) ;
#19 = ORIENTED_EDGE ( 'NONE', *, *, #242, .T. ) ;
#20 = SECURITY_CLASSIFICATION ( '', '', #221 ) ;
#21 = FACE_OUTER_BOUND ( 'NONE', #305, .T. ) ;
#22 = EDGE_CURVE ( 'NONE', #76, #302, #82, .T. ) ;
#23 = ORIENTED_EDGE ( 'NONE', *, *, #128, .F. ) ;
#24 =( LENGTH_UNIT ( ) NAMED_UNIT ( * ) SI_UNIT ( .MILLI., .METRE. ) );
#25 = ORIENTED_EDGE ( 'NONE', *, *, #177, .F. ) ;
#26 = ADVANCED_FACE ( 'NONE', ( #127, #220 ), #104, .F. ) ;
#27 = ORIENTED_EDGE ( 'NONE', *, *, #291, .F. ) ;
#28 = PRODUCT ( 'QM-CAHWP-20-650-1100-M', 'QM-CAHWP-20-650-1100-M', '', ( #135 ) ) ;
#29 = CARTESIAN_POINT ( 'NONE',  ( 3.000000000000000000, 0.000000000000000000, 0.000000000000000000 ) ) ;
#30 = PERSON_AND_ORGANIZATION_ROLE ( 'classification_officer' ) ;
#31 = EDGE_CURVE ( 'NONE', #42, #292, #89, .T. ) ;
#32 = PLANE ( 'NONE',  #273 ) ;
#33 = AXIS2_PLACEMENT_3D ( 'NONE', #228, #311, #10 ) ;
#34 =( NAMED_UNIT ( * ) SI_UNIT ( $, .STERADIAN. ) SOLID_ANGLE_UNIT ( ) );
#35 = DESIGN_CONTEXT ( 'detailed design', #150, 'design' ) ;
#36 = DATE_TIME_ROLE ( 'classification_date' ) ;
#37 = APPROVAL ( #129, 'UNSPECIFIED' ) ;
#38 = DIRECTION ( 'NONE',  ( -1.000000000000000000, -0.000000000000000000, -0.000000000000000000 ) ) ;
#39 = ORIENTED_EDGE ( 'NONE', *, *, #229, .T. ) ;
#40 = APPROVAL_PERSON_ORGANIZATION ( #309, #37, #286 ) ;
#41 = DIRECTION ( 'NONE',  ( -1.000000000000000000, -0.000000000000000000, -0.000000000000000000 ) ) ;
#42 = VERTEX_POINT ( 'NONE', #91 ) ;
#43 = DIRECTION ( 'NONE',  ( -1.000000000000000000, -0.000000000000000000, -0.000000000000000000 ) ) ;
#44 = SHAPE_DEFINITION_REPRESENTATION ( #301, #212 ) ;
#45 = DIRECTION ( 'NONE',  ( 0.000000000000000000, 0.000000000000000000, -1.000000000000000000 ) ) ;
#46 = ORIENTED_EDGE ( 'NONE', *, *, #122, .F. ) ;
#47 = EDGE_CURVE ( 'NONE', #17, #162, #161, .T. ) ;
#48 = DIRECTION ( 'NONE',  ( -1.000000000000000000, -0.000000000000000000, -0.000000000000000000 ) ) ;
#49 = VECTOR ( 'NONE', #74, 1000.000000000000000 ) ;
#50 = ORIENTED_EDGE ( 'NONE', *, *, #114, .F. ) ;
#51 = CARTESIAN_POINT ( 'NONE',  ( -3.000000000000000000, 10.00000000000000000, 0.000000000000000000 ) ) ;
#52 = EDGE_LOOP ( 'NONE', ( #238, #106, #282, #27 ) ) ;
#53 = CC_DESIGN_DATE_AND_TIME_ASSIGNMENT ( #6, #312, ( #186 ) ) ;
#54 = CARTESIAN_POINT ( 'NONE',  ( 2.999999999999999112, 0.000000000000000000, 0.000000000000000000 ) ) ;
#55 = DATE_AND_TIME ( #306, #126 ) ;
#56 = VERTEX_POINT ( 'NONE', #62 ) ;
#57 = CYLINDRICAL_SURFACE ( 'NONE', #146, 12.69999999999999929 ) ;
#58 = COORDINATED_UNIVERSAL_TIME_OFFSET ( 8, 0, .AHEAD. ) ;
#59 = DIRECTION ( 'NONE',  ( 0.000000000000000000, 0.000000000000000000, 1.000000000000000000 ) ) ;
#60 = AXIS2_PLACEMENT_3D ( 'NONE', #118, #41, #72 ) ;
#61 = AXIS2_PLACEMENT_3D ( 'NONE', #285, #4, #160 ) ;
#62 = CARTESIAN_POINT ( 'NONE',  ( 0.5000000000000013323, 0.000000000000000000, 10.00000000000000000 ) ) ;
#63 = ADVANCED_FACE ( 'NONE', ( #67 ), #87, .T. ) ;
#64 = UNCERTAINTY_MEASURE_WITH_UNIT (LENGTH_MEASURE( 1.000000000000000082E-05 ), #24, 'distance_accuracy_value', 'NONE');
#65 = ORIENTED_EDGE ( 'NONE', *, *, #114, .T. ) ;
#66 = EDGE_CURVE ( 'NONE', #17, #292, #260, .T. ) ;
#67 = FACE_OUTER_BOUND ( 'NONE', #52, .T. ) ;
#68 = CIRCLE ( 'NONE', #119, 12.69999999999999929 ) ;
#69 = DIRECTION ( 'NONE',  ( 1.000000000000000000, 0.000000000000000000, 0.000000000000000000 ) ) ;
#70 = CARTESIAN_POINT ( 'NONE',  ( 2.999999999999999112, 0.000000000000000000, 10.00000000000000000 ) ) ;
#71 = VERTEX_POINT ( 'NONE', #158 ) ;
#72 = DIRECTION ( 'NONE',  ( 0.000000000000000000, 0.000000000000000000, 1.000000000000000000 ) ) ;
#73 = ORIENTED_EDGE ( 'NONE', *, *, #47, .T. ) ;
#74 = DIRECTION ( 'NONE',  ( -1.000000000000000000, -0.000000000000000000, -0.000000000000000000 ) ) ;
#75 = CIRCLE ( 'NONE', #187, 10.00000000000000000 ) ;
#76 = VERTEX_POINT ( 'NONE', #257 ) ;
#77 = LINE ( 'NONE', #93, #49 ) ;
#78 = ORIENTED_EDGE ( 'NONE', *, *, #177, .T. ) ;
#79 = DIRECTION ( 'NONE',  ( 1.000000000000000000, 0.000000000000000000, 0.000000000000000000 ) ) ;
#80 = DATE_AND_TIME ( #132, #328 ) ;
#81 = ORIENTED_EDGE ( 'NONE', *, *, #22, .F. ) ;
#82 = CIRCLE ( 'NONE', #258, 10.00000000000000000 ) ;
#83 = DIRECTION ( 'NONE',  ( 1.000000000000000000, 0.000000000000000000, 0.000000000000000000 ) ) ;
#84 = DIRECTION ( 'NONE',  ( -1.000000000000000000, -0.000000000000000000, -0.000000000000000000 ) ) ;
#85 = DIRECTION ( 'NONE',  ( 0.000000000000000000, 0.000000000000000000, 1.000000000000000000 ) ) ;
#86 = DIRECTION ( 'NONE',  ( -1.000000000000000000, -0.000000000000000000, -0.000000000000000000 ) ) ;
#87 = CYLINDRICAL_SURFACE ( 'NONE', #61, 12.69999999999999929 ) ;
#88 = AXIS2_PLACEMENT_3D ( 'NONE', #167, #120, #99 ) ;
#89 = CIRCLE ( 'NONE', #310, 12.69999999999999929 ) ;
#90 = EDGE_LOOP ( 'NONE', ( #169, #199 ) ) ;
#91 = CARTESIAN_POINT ( 'NONE',  ( -3.000000000000000000, 0.000000000000000000, 12.69999999999999929 ) ) ;
#92 = VERTEX_POINT ( 'NONE', #236 ) ;
#93 = CARTESIAN_POINT ( 'NONE',  ( -1.614212418857619014, 0.000000000000000000, 10.00000000000000000 ) ) ;
#94 = CC_DESIGN_APPROVAL ( #231, ( #186 ) ) ;
#95 = CYLINDRICAL_SURFACE ( 'NONE', #88, 10.00000000000000000 ) ;
#96 = AXIS2_PLACEMENT_3D ( 'NONE', #125, #217, #175 ) ;
#97 = DIRECTION ( 'NONE',  ( 0.000000000000000000, 0.000000000000000000, 1.000000000000000000 ) ) ;
#98 = EDGE_LOOP ( 'NONE', ( #331, #164 ) ) ;
#99 = DIRECTION ( 'NONE',  ( 0.000000000000000000, 0.000000000000000000, 1.000000000000000000 ) ) ;
#100 = VERTEX_POINT ( 'NONE', #230 ) ;
#101 = FACE_OUTER_BOUND ( 'NONE', #308, .T. ) ;
#102 = VECTOR ( 'NONE', #263, 1000.000000000000000 ) ;
#103 = PERSON_AND_ORGANIZATION ( #283, #156 ) ;
#104 = PLANE ( 'NONE',  #226 ) ;
#105 = DATE_AND_TIME ( #330, #9 ) ;
#106 = ORIENTED_EDGE ( 'NONE', *, *, #66, .T. ) ;
#107 = CIRCLE ( 'NONE', #237, 10.00000000000000000 ) ;
#108 = APPROVAL_ROLE ( '' ) ;
#109 = DIRECTION ( 'NONE',  ( -1.000000000000000000, 0.000000000000000000, -0.000000000000000000 ) ) ;
#110 = DIRECTION ( 'NONE',  ( 0.000000000000000000, 0.000000000000000000, 1.000000000000000000 ) ) ;
#111 = CARTESIAN_POINT ( 'NONE',  ( -3.000000000000000000, 0.000000000000000000, 0.000000000000000000 ) ) ;
#112 = ADVANCED_FACE ( 'NONE', ( #7 ), #136, .F. ) ;
#113 = DIRECTION ( 'NONE',  ( -1.000000000000000000, -0.000000000000000000, -0.000000000000000000 ) ) ;
#114 = EDGE_CURVE ( 'NONE', #76, #299, #131, .T. ) ;
#115 = CIRCLE ( 'NONE', #280, 10.00000000000000000 ) ;
#116 = DIRECTION ( 'NONE',  ( -0.000000000000000000, 0.000000000000000000, 1.000000000000000000 ) ) ;
#117 = CC_DESIGN_DATE_AND_TIME_ASSIGNMENT ( #105, #36, ( #20 ) ) ;
#118 = CARTESIAN_POINT ( 'NONE',  ( 0.5000000000000013323, 0.000000000000000000, 0.000000000000000000 ) ) ;
#119 = AXIS2_PLACEMENT_3D ( 'NONE', #254, #86, #316 ) ;
#120 = DIRECTION ( 'NONE',  ( -1.000000000000000000, -0.000000000000000000, -0.000000000000000000 ) ) ;
#121 = ORIENTED_EDGE ( 'NONE', *, *, #197, .F. ) ;
#122 = EDGE_CURVE ( 'NONE', #162, #17, #68, .T. ) ;
#123 = EDGE_LOOP ( 'NONE', ( #279, #326, #78, #192 ) ) ;
#124 = DIRECTION ( 'NONE',  ( 0.000000000000000000, 0.000000000000000000, 1.000000000000000000 ) ) ;
#125 = CARTESIAN_POINT ( 'NONE',  ( -0.5000000000000006661, 10.00000000000000000, 0.000000000000000000 ) ) ;
#126 = LOCAL_TIME ( 10, 35, 43.00000000000000000, #154 ) ;
#127 = FACE_OUTER_BOUND ( 'NONE', #172, .T. ) ;
#128 = EDGE_CURVE ( 'NONE', #56, #299, #133, .T. ) ;
#129 = APPROVAL_STATUS ( 'not_yet_approved' ) ;
#130 = CC_DESIGN_PERSON_AND_ORGANIZATION_ASSIGNMENT ( #200, #227, ( #186 ) ) ;
#131 = LINE ( 'NONE', #223, #185 ) ;
#132 = CALENDAR_DATE ( 2021, 5, 1 ) ;
#133 = CIRCLE ( 'NONE', #265, 10.00000000000000000 ) ;
#134 = CARTESIAN_POINT ( 'NONE',  ( 0.5000000000000006661, 10.00000000000000000, 0.000000000000000000 ) ) ;
#135 = MECHANICAL_CONTEXT ( 'NONE', #232, 'mechanical' ) ;
#136 = CYLINDRICAL_SURFACE ( 'NONE', #33, 10.00000000000000000 ) ;
#137 = CARTESIAN_POINT ( 'NONE',  ( -1.614212418857619014, 1.555301434917138433E-15, -12.69999999999999929 ) ) ;
#138 = AXIS2_PLACEMENT_3D ( 'NONE', #298, #171, #97 ) ;
#139 = DIRECTION ( 'NONE',  ( -1.000000000000000000, -0.000000000000000000, -0.000000000000000000 ) ) ;
#140 = APPROVAL_PERSON_ORGANIZATION ( #202, #231, #108 ) ;
#141 = LINE ( 'NONE', #210, #207 ) ;
#142 = ORIENTED_EDGE ( 'NONE', *, *, #229, .F. ) ;
#143 = LINE ( 'NONE', #148, #288 ) ;
#144 = CARTESIAN_POINT ( 'NONE',  ( -0.5000000000000006661, 0.000000000000000000, 0.000000000000000000 ) ) ;
#145 = ORIENTED_EDGE ( 'NONE', *, *, #181, .F. ) ;
#146 = AXIS2_PLACEMENT_3D ( 'NONE', #209, #113, #184 ) ;
#147 = EDGE_LOOP ( 'NONE', ( #145, #25 ) ) ;
#148 = CARTESIAN_POINT ( 'NONE',  ( -1.614212418857619014, 0.000000000000000000, 12.69999999999999929 ) ) ;
#149 = PLANE ( 'NONE',  #96 ) ;
#150 = APPLICATION_CONTEXT ( 'configuration controlled 3d designs of mechanical parts and assemblies' ) ;
#151 = DIRECTION ( 'NONE',  ( -1.000000000000000000, -0.000000000000000000, -0.000000000000000000 ) ) ;
#152 = ORIENTED_EDGE ( 'NONE', *, *, #218, .T. ) ;
#153 = ORIENTED_EDGE ( 'NONE', *, *, #66, .F. ) ;
#154 = COORDINATED_UNIVERSAL_TIME_OFFSET ( 8, 0, .AHEAD. ) ;
#155 = FACE_OUTER_BOUND ( 'NONE', #15, .T. ) ;
#156 = ORGANIZATION ( 'UNSPECIFIED', 'UNSPECIFIED', '' ) ;
#157 = FACE_OUTER_BOUND ( 'NONE', #123, .T. ) ;
#158 = CARTESIAN_POINT ( 'NONE',  ( -3.000000000000000000, 0.000000000000000000, 10.00000000000000000 ) ) ;
#159 = CC_DESIGN_APPROVAL ( #37, ( #183 ) ) ;
#160 = DIRECTION ( 'NONE',  ( 0.000000000000000000, 0.000000000000000000, 1.000000000000000000 ) ) ;
#161 = CIRCLE ( 'NONE', #321, 12.69999999999999929 ) ;
#162 = VERTEX_POINT ( 'NONE', #188 ) ;
#163 = ADVANCED_FACE ( 'NONE', ( #225 ), #57, .T. ) ;
#164 = ORIENTED_EDGE ( 'NONE', *, *, #259, .T. ) ;
#165 = DIRECTION ( 'NONE',  ( 0.000000000000000000, 0.000000000000000000, -1.000000000000000000 ) ) ;
#166 = CARTESIAN_POINT ( 'NONE',  ( -0.5000000000000006661, 0.000000000000000000, 0.000000000000000000 ) ) ;
#167 = CARTESIAN_POINT ( 'NONE',  ( -1.614212418857619014, 0.000000000000000000, 0.000000000000000000 ) ) ;
#168 = APPROVAL_ROLE ( '' ) ;
#169 = ORIENTED_EDGE ( 'NONE', *, *, #307, .F. ) ;
#170 = CIRCLE ( 'NONE', #1, 12.69999999999999929 ) ;
#171 = DIRECTION ( 'NONE',  ( -1.000000000000000000, -0.000000000000000000, -0.000000000000000000 ) ) ;
#172 = EDGE_LOOP ( 'NONE', ( #46, #215 ) ) ;
#173 = COORDINATED_UNIVERSAL_TIME_OFFSET ( 8, 0, .AHEAD. ) ;
#174 = ADVANCED_FACE ( 'NONE', ( #155 ), #32, .F. ) ;
#175 = DIRECTION ( 'NONE',  ( 0.000000000000000000, 0.000000000000000000, -1.000000000000000000 ) ) ;
#176 = CALENDAR_DATE ( 2021, 5, 1 ) ;
#177 = EDGE_CURVE ( 'NONE', #100, #71, #115, .T. ) ;
#178 = ORIENTED_EDGE ( 'NONE', *, *, #264, .F. ) ;
#179 = PERSON_AND_ORGANIZATION ( #283, #156 ) ;
#180 = ORIENTED_EDGE ( 'NONE', *, *, #304, .T. ) ;
#181 = EDGE_CURVE ( 'NONE', #71, #100, #107, .T. ) ;
#182 = CARTESIAN_POINT ( 'NONE',  ( -3.000000000000000000, 0.000000000000000000, 0.000000000000000000 ) ) ;
#183 = PRODUCT_DEFINITION_FORMATION_WITH_SPECIFIED_SOURCE ( 'ANY', '', #28, .NOT_KNOWN. ) ;
#184 = DIRECTION ( 'NONE',  ( 0.000000000000000000, 0.000000000000000000, 1.000000000000000000 ) ) ;
#185 = VECTOR ( 'NONE', #256, 1000.000000000000000 ) ;
#186 = PRODUCT_DEFINITION ( 'UNKNOWN', '', #183, #35 ) ;
#187 = AXIS2_PLACEMENT_3D ( 'NONE', #166, #270, #45 ) ;
#188 = CARTESIAN_POINT ( 'NONE',  ( 3.000000000000000000, 0.000000000000000000, 12.69999999999999929 ) ) ;
#189 = AXIS2_PLACEMENT_3D ( 'NONE', #251, #110, #79 ) ;
#190 = CARTESIAN_POINT ( 'NONE',  ( 0.5000000000000013323, 1.224646799147353256E-15, -10.00000000000000000 ) ) ;
#191 = DIRECTION ( 'NONE',  ( 0.000000000000000000, 0.000000000000000000, 1.000000000000000000 ) ) ;
#192 = ORIENTED_EDGE ( 'NONE', *, *, #242, .F. ) ;
#193 = DIRECTION ( 'NONE',  ( 0.000000000000000000, 0.000000000000000000, 1.000000000000000000 ) ) ;
#194 = VECTOR ( 'NONE', #38, 1000.000000000000000 ) ;
#195 = ADVANCED_FACE ( 'NONE', ( #157 ), #267, .F. ) ;
#196 = PERSON_AND_ORGANIZATION_ROLE ( 'design_owner' ) ;
#197 = EDGE_CURVE ( 'NONE', #92, #100, #323, .T. ) ;
#198 = CARTESIAN_POINT ( 'NONE',  ( 2.999999999999999556, 12.69999999999999929, 0.000000000000000000 ) ) ;
#199 = ORIENTED_EDGE ( 'NONE', *, *, #304, .F. ) ;
#200 = PERSON_AND_ORGANIZATION ( #283, #156 ) ;
#201 = DIRECTION ( 'NONE',  ( -0.000000000000000000, 0.000000000000000000, 1.000000000000000000 ) ) ;
#202 = PERSON_AND_ORGANIZATION ( #283, #156 ) ;
#203 = DIRECTION ( 'NONE',  ( -1.000000000000000000, 0.000000000000000000, -0.000000000000000000 ) ) ;
#204 = AXIS2_PLACEMENT_3D ( 'NONE', #214, #246, #191 ) ;
#205 = CARTESIAN_POINT ( 'NONE',  ( 0.5000000000000013323, 0.000000000000000000, 0.000000000000000000 ) ) ;
#206 = ADVANCED_FACE ( 'NONE', ( #101 ), #325, .F. ) ;
#207 = VECTOR ( 'NONE', #43, 1000.000000000000000 ) ;
#208 = ORIENTED_EDGE ( 'NONE', *, *, #128, .T. ) ;
#209 = CARTESIAN_POINT ( 'NONE',  ( -1.614212418857619014, 0.000000000000000000, 0.000000000000000000 ) ) ;
#210 = CARTESIAN_POINT ( 'NONE',  ( -1.614212418857619014, 0.000000000000000000, 10.00000000000000000 ) ) ;
#211 = CARTESIAN_POINT ( 'NONE',  ( -0.5000000000000006661, 0.000000000000000000, 10.00000000000000000 ) ) ;
#212 = ADVANCED_BREP_SHAPE_REPRESENTATION ( 'QM-CAHWP-20-650-1100-M', ( #213, #189 ), #8 ) ;
#213 = MANIFOLD_SOLID_BREP ( 'Ðý×', #13 ) ;
#214 = CARTESIAN_POINT ( 'NONE',  ( -1.614212418857619014, 0.000000000000000000, 0.000000000000000000 ) ) ;
#215 = ORIENTED_EDGE ( 'NONE', *, *, #47, .F. ) ;
#216 = FACE_BOUND ( 'NONE', #147, .T. ) ;
#217 = DIRECTION ( 'NONE',  ( 1.000000000000000000, 0.000000000000000000, 0.000000000000000000 ) ) ;
#218 = EDGE_CURVE ( 'NONE', #302, #76, #320, .T. ) ;
#219 = APPROVAL_STATUS ( 'not_yet_approved' ) ;
#220 = FACE_BOUND ( 'NONE', #244, .T. ) ;
#221 = SECURITY_CLASSIFICATION_LEVEL ( 'unclassified' ) ;
#222 = PERSON_AND_ORGANIZATION ( #283, #156 ) ;
#223 = CARTESIAN_POINT ( 'NONE',  ( -1.614212418857619014, 1.224646799147353256E-15, -10.00000000000000000 ) ) ;
#224 = CIRCLE ( 'NONE', #255, 10.00000000000000000 ) ;
#225 = FACE_OUTER_BOUND ( 'NONE', #297, .T. ) ;
#226 = AXIS2_PLACEMENT_3D ( 'NONE', #198, #203, #116 ) ;
#227 = PERSON_AND_ORGANIZATION_ROLE ( 'creator' ) ;
#228 = CARTESIAN_POINT ( 'NONE',  ( -1.614212418857619014, 0.000000000000000000, 0.000000000000000000 ) ) ;
#229 = EDGE_CURVE ( 'NONE', #299, #56, #295, .T. ) ;
#230 = CARTESIAN_POINT ( 'NONE',  ( -3.000000000000000000, 1.224646799147353256E-15, -10.00000000000000000 ) ) ;
#231 = APPROVAL ( #219, 'UNSPECIFIED' ) ;
#232 = APPLICATION_CONTEXT ( 'configuration controlled 3d designs of mechanical parts and assemblies' ) ;
#233 = AXIS2_PLACEMENT_3D ( 'NONE', #300, #243, #193 ) ;
#234 = PERSON_AND_ORGANIZATION ( #283, #156 ) ;
#235 = ADVANCED_FACE ( 'NONE', ( #21 ), #95, .F. ) ;
#236 = CARTESIAN_POINT ( 'NONE',  ( -0.5000000000000006661, 1.224646799147353256E-15, -10.00000000000000000 ) ) ;
#237 = AXIS2_PLACEMENT_3D ( 'NONE', #182, #287, #59 ) ;
#238 = ORIENTED_EDGE ( 'NONE', *, *, #122, .T. ) ;
#239 = FACE_OUTER_BOUND ( 'NONE', #98, .T. ) ;
#240 = DIRECTION ( 'NONE',  ( -1.000000000000000000, -0.000000000000000000, -0.000000000000000000 ) ) ;
#241 = COORDINATED_UNIVERSAL_TIME_OFFSET ( 8, 0, .AHEAD. ) ;
#242 = EDGE_CURVE ( 'NONE', #296, #71, #77, .T. ) ;
#243 = DIRECTION ( 'NONE',  ( -1.000000000000000000, -0.000000000000000000, -0.000000000000000000 ) ) ;
#244 = EDGE_LOOP ( 'NONE', ( #152, #262 ) ) ;
#245 = CC_DESIGN_SECURITY_CLASSIFICATION ( #20, ( #183 ) ) ;
#246 = DIRECTION ( 'NONE',  ( -1.000000000000000000, -0.000000000000000000, -0.000000000000000000 ) ) ;
#247 = CC_DESIGN_PERSON_AND_ORGANIZATION_ASSIGNMENT ( #179, #196, ( #28 ) ) ;
#248 = APPLICATION_PROTOCOL_DEFINITION ( 'international standard', 'config_control_design', 1994, #150 ) ;
#249 = DIRECTION ( 'NONE',  ( 0.000000000000000000, 0.000000000000000000, 1.000000000000000000 ) ) ;
#250 = ORIENTED_EDGE ( 'NONE', *, *, #259, .F. ) ;
#251 = CARTESIAN_POINT ( 'NONE',  ( 0.000000000000000000, 0.000000000000000000, 0.000000000000000000 ) ) ;
#252 = EDGE_LOOP ( 'NONE', ( #81, #65, #39, #178 ) ) ;
#253 = APPLICATION_PROTOCOL_DEFINITION ( 'international standard', 'config_control_design', 1994, #232 ) ;
#254 = CARTESIAN_POINT ( 'NONE',  ( 3.000000000000000000, 0.000000000000000000, 0.000000000000000000 ) ) ;
#255 = AXIS2_PLACEMENT_3D ( 'NONE', #144, #83, #2 ) ;
#256 = DIRECTION ( 'NONE',  ( -1.000000000000000000, -0.000000000000000000, -0.000000000000000000 ) ) ;
#257 = CARTESIAN_POINT ( 'NONE',  ( 2.999999999999999112, 1.224646799147353256E-15, -10.00000000000000000 ) ) ;
#258 = AXIS2_PLACEMENT_3D ( 'NONE', #54, #151, #249 ) ;
#259 = EDGE_CURVE ( 'NONE', #292, #42, #170, .T. ) ;
#260 = LINE ( 'NONE', #137, #194 ) ;
#261 = APPROVAL_DATE_TIME ( #268, #5 ) ;
#262 = ORIENTED_EDGE ( 'NONE', *, *, #22, .T. ) ;
#263 = DIRECTION ( 'NONE',  ( -1.000000000000000000, -0.000000000000000000, -0.000000000000000000 ) ) ;
#264 = EDGE_CURVE ( 'NONE', #302, #56, #141, .T. ) ;
#265 = AXIS2_PLACEMENT_3D ( 'NONE', #205, #84, #322 ) ;
#266 = ORIENTED_EDGE ( 'NONE', *, *, #264, .T. ) ;
#267 = CYLINDRICAL_SURFACE ( 'NONE', #138, 10.00000000000000000 ) ;
#268 = DATE_AND_TIME ( #271, #14 ) ;
#269 = ADVANCED_FACE ( 'NONE', ( #216, #239 ), #294, .F. ) ;
#270 = DIRECTION ( 'NONE',  ( 1.000000000000000000, 0.000000000000000000, 0.000000000000000000 ) ) ;
#271 = CALENDAR_DATE ( 2021, 5, 1 ) ;
#272 = ORIENTED_EDGE ( 'NONE', *, *, #181, .T. ) ;
#273 = AXIS2_PLACEMENT_3D ( 'NONE', #134, #109, #201 ) ;
#274 = CARTESIAN_POINT ( 'NONE',  ( -3.000000000000000000, 0.000000000000000000, 0.000000000000000000 ) ) ;
#275 = PRODUCT_RELATED_PRODUCT_CATEGORY ( 'detail', '', ( #28 ) ) ;
#276 = FACE_OUTER_BOUND ( 'NONE', #90, .T. ) ;
#277 = CARTESIAN_POINT ( 'NONE',  ( 3.000000000000000000, 1.555301434917138433E-15, -12.69999999999999929 ) ) ;
#278 = PERSON_AND_ORGANIZATION_ROLE ( 'creator' ) ;
#279 = ORIENTED_EDGE ( 'NONE', *, *, #307, .T. ) ;
#280 = AXIS2_PLACEMENT_3D ( 'NONE', #289, #313, #85 ) ;
#281 = APPROVAL_DATE_TIME ( #55, #37 ) ;
#282 = ORIENTED_EDGE ( 'NONE', *, *, #31, .F. ) ;
#283 = PERSON ( 'UNSPECIFIED', 'UNSPECIFIED', 'UNSPECIFIED', ('UNSPECIFIED'), ('UNSPECIFIED'), ('UNSPECIFIED') ) ;
#284 = COORDINATED_UNIVERSAL_TIME_OFFSET ( 8, 0, .AHEAD. ) ;
#285 = CARTESIAN_POINT ( 'NONE',  ( -1.614212418857619014, 0.000000000000000000, 0.000000000000000000 ) ) ;
#286 = APPROVAL_ROLE ( '' ) ;
#287 = DIRECTION ( 'NONE',  ( -1.000000000000000000, -0.000000000000000000, -0.000000000000000000 ) ) ;
#288 = VECTOR ( 'NONE', #240, 1000.000000000000000 ) ;
#289 = CARTESIAN_POINT ( 'NONE',  ( -3.000000000000000000, 0.000000000000000000, 0.000000000000000000 ) ) ;
#290 = DIRECTION ( 'NONE',  ( -1.000000000000000000, -0.000000000000000000, -0.000000000000000000 ) ) ;
#291 = EDGE_CURVE ( 'NONE', #162, #42, #143, .T. ) ;
#292 = VERTEX_POINT ( 'NONE', #16 ) ;
#293 = DIRECTION ( 'NONE',  ( 0.000000000000000000, 0.000000000000000000, 1.000000000000000000 ) ) ;
#294 = PLANE ( 'NONE',  #324 ) ;
#295 = CIRCLE ( 'NONE', #60, 10.00000000000000000 ) ;
#296 = VERTEX_POINT ( 'NONE', #211 ) ;
#297 = EDGE_LOOP ( 'NONE', ( #153, #73, #329, #250 ) ) ;
#298 = CARTESIAN_POINT ( 'NONE',  ( -1.614212418857619014, 0.000000000000000000, 0.000000000000000000 ) ) ;
#299 = VERTEX_POINT ( 'NONE', #190 ) ;
#300 = CARTESIAN_POINT ( 'NONE',  ( 2.999999999999999112, 0.000000000000000000, 0.000000000000000000 ) ) ;
#301 = PRODUCT_DEFINITION_SHAPE ( 'NONE', 'NONE',  #186 ) ;
#302 = VERTEX_POINT ( 'NONE', #70 ) ;
#303 = APPROVAL_DATE_TIME ( #80, #231 ) ;
#304 = EDGE_CURVE ( 'NONE', #92, #296, #75, .T. ) ;
#305 = EDGE_LOOP ( 'NONE', ( #121, #180, #19, #272 ) ) ;
#306 = CALENDAR_DATE ( 2021, 5, 1 ) ;
#307 = EDGE_CURVE ( 'NONE', #296, #92, #224, .T. ) ;
#308 = EDGE_LOOP ( 'NONE', ( #50, #334, #266, #208 ) ) ;
#309 = PERSON_AND_ORGANIZATION ( #283, #156 ) ;
#310 = AXIS2_PLACEMENT_3D ( 'NONE', #111, #290, #293 ) ;
#311 = DIRECTION ( 'NONE',  ( -1.000000000000000000, -0.000000000000000000, -0.000000000000000000 ) ) ;
#312 = DATE_TIME_ROLE ( 'creation_date' ) ;
#313 = DIRECTION ( 'NONE',  ( -1.000000000000000000, -0.000000000000000000, -0.000000000000000000 ) ) ;
#314 = PERSON_AND_ORGANIZATION_ROLE ( 'design_supplier' ) ;
#315 = CC_DESIGN_PERSON_AND_ORGANIZATION_ASSIGNMENT ( #335, #314, ( #183 ) ) ;
#316 = DIRECTION ( 'NONE',  ( 0.000000000000000000, 0.000000000000000000, 1.000000000000000000 ) ) ;
#317 = DIRECTION ( 'NONE',  ( 0.000000000000000000, 0.000000000000000000, 1.000000000000000000 ) ) ;
#318 = APPROVAL_PERSON_ORGANIZATION ( #234, #5, #168 ) ;
#319 = CC_DESIGN_PERSON_AND_ORGANIZATION_ASSIGNMENT ( #222, #278, ( #183 ) ) ;
#320 = CIRCLE ( 'NONE', #233, 10.00000000000000000 ) ;
#321 = AXIS2_PLACEMENT_3D ( 'NONE', #29, #139, #317 ) ;
#322 = DIRECTION ( 'NONE',  ( 0.000000000000000000, 0.000000000000000000, 1.000000000000000000 ) ) ;
#323 = LINE ( 'NONE', #18, #102 ) ;
#324 = AXIS2_PLACEMENT_3D ( 'NONE', #51, #69, #165 ) ;
#325 = CYLINDRICAL_SURFACE ( 'NONE', #204, 10.00000000000000000 ) ;
#326 = ORIENTED_EDGE ( 'NONE', *, *, #197, .T. ) ;
#327 = APPROVAL_STATUS ( 'not_yet_approved' ) ;
#328 = LOCAL_TIME ( 10, 35, 43.00000000000000000, #173 ) ;
#329 = ORIENTED_EDGE ( 'NONE', *, *, #291, .T. ) ;
#330 = CALENDAR_DATE ( 2021, 5, 1 ) ;
#331 = ORIENTED_EDGE ( 'NONE', *, *, #31, .T. ) ;
#332 = CC_DESIGN_APPROVAL ( #5, ( #20 ) ) ;
#333 =( NAMED_UNIT ( * ) PLANE_ANGLE_UNIT ( ) SI_UNIT ( $, .RADIAN. ) );
#334 = ORIENTED_EDGE ( 'NONE', *, *, #218, .F. ) ;
#335 = PERSON_AND_ORGANIZATION ( #283, #156 ) ;
ENDSEC;
END-ISO-10303-21;
